ISO-10303-21;
HEADER;
FILE_DESCRIPTION(('STEP AP214'),'1');
FILE_NAME('270_010_000_10.stp','2021-05-27T06:02:12',('TraceParts'),('TraceParts S.A.'),'Spatial InterOp 3D',' ',' ');
FILE_SCHEMA(('AUTOMOTIVE_DESIGN { 1 0 10303 214 1 1 1 1 }'));
ENDSEC;
DATA;
#1=PRODUCT_DEFINITION_CONTEXT('',#9,'design');
#2=APPLICATION_PROTOCOL_DEFINITION('INTERNATIONAL STANDARD','automotive_design',1994,#9);
#3=PRODUCT_CATEGORY_RELATIONSHIP('NONE','NONE',#10,#11);
#4=SHAPE_DEFINITION_REPRESENTATION(#12,#13);
#5= (GEOMETRIC_REPRESENTATION_CONTEXT(3)GLOBAL_UNCERTAINTY_ASSIGNED_CONTEXT((#16))GLOBAL_UNIT_ASSIGNED_CONTEXT((#18,#19,#20))REPRESENTATION_CONTEXT('NONE','WORKSPACE'));
#9=APPLICATION_CONTEXT(' ');
#10=PRODUCT_CATEGORY('part','NONE');
#11=PRODUCT_RELATED_PRODUCT_CATEGORY('detail',' ',(#22));
#12=PRODUCT_DEFINITION_SHAPE('NONE','NONE',#23);
#13=ADVANCED_BREP_SHAPE_REPRESENTATION('270_010_000_10',(#24,#25),#5);
#16=UNCERTAINTY_MEASURE_WITH_UNIT(LENGTH_MEASURE(1.0E-06),#18,'','');
#18= (CONVERSION_BASED_UNIT('MILLIMETRE',#28)LENGTH_UNIT()NAMED_UNIT(#31));
#19= (NAMED_UNIT(#33)PLANE_ANGLE_UNIT()SI_UNIT($,.RADIAN.));
#20= (NAMED_UNIT(#33)SOLID_ANGLE_UNIT()SI_UNIT($,.STERADIAN.));
#22=PRODUCT('270_010_000_10','270_010_000_10','PART-270_010_000_10-DESC',(#39));
#23=PRODUCT_DEFINITION('','NONE',#40,#1);
#24=MANIFOLD_SOLID_BREP('270_010_000_10',#41);
#25=AXIS2_PLACEMENT_3D('',#42,#43,#44);
#28=LENGTH_MEASURE_WITH_UNIT(LENGTH_MEASURE(1.0),#45);
#31=DIMENSIONAL_EXPONENTS(1.0,0.0,0.0,0.0,0.0,0.0,0.0);
#33=DIMENSIONAL_EXPONENTS(0.0,0.0,0.0,0.0,0.0,0.0,0.0);
#39=PRODUCT_CONTEXT('',#9,'mechanical');
#40=PRODUCT_DEFINITION_FORMATION_WITH_SPECIFIED_SOURCE(' ','NONE',#22,.NOT_KNOWN.);
#41=CLOSED_SHELL('',(#46,#47,#48,#49,#50,#51,#52,#53,#54,#55,#56,#57,#58,#59,#60,#61,#62,#63));
#42=CARTESIAN_POINT('',(0.0,0.0,0.0));
#43=DIRECTION('',(0.0,0.0,1.0));
#44=DIRECTION('',(1.0,0.0,0.0));
#45= (NAMED_UNIT(#31)LENGTH_UNIT()SI_UNIT(.MILLI.,.METRE.));
#46=ADVANCED_FACE('',(#65),#66,.T.);
#47=ADVANCED_FACE('',(#67),#68,.T.);
#48=ADVANCED_FACE('',(#69),#70,.T.);
#49=ADVANCED_FACE('',(#71),#72,.T.);
#50=ADVANCED_FACE('',(#73),#74,.T.);
#51=ADVANCED_FACE('',(#75),#76,.T.);
#52=ADVANCED_FACE('',(#77),#78,.F.);
#53=ADVANCED_FACE('',(#79),#80,.T.);
#54=ADVANCED_FACE('',(#81),#82,.T.);
#55=ADVANCED_FACE('',(#83),#84,.T.);
#56=ADVANCED_FACE('',(#85),#86,.F.);
#57=ADVANCED_FACE('',(#87),#88,.T.);
#58=ADVANCED_FACE('',(#89),#90,.T.);
#59=ADVANCED_FACE('',(#91),#92,.T.);
#60=ADVANCED_FACE('',(#93),#94,.T.);
#61=ADVANCED_FACE('',(#95),#96,.T.);
#62=ADVANCED_FACE('',(#97),#98,.T.);
#63=ADVANCED_FACE('',(#99),#100,.F.);
#65=FACE_OUTER_BOUND('',#101,.T.);
#66=PLANE('',#102);
#67=FACE_OUTER_BOUND('',#103,.T.);
#68=CYLINDRICAL_SURFACE('',#104,2.0);
#69=FACE_OUTER_BOUND('',#105,.T.);
#70=PLANE('',#106);
#71=FACE_OUTER_BOUND('',#107,.T.);
#72=CYLINDRICAL_SURFACE('',#108,2.0);
#73=FACE_OUTER_BOUND('',#109,.T.);
#74=PLANE('',#110);
#75=FACE_OUTER_BOUND('',#111,.T.);
#76=CYLINDRICAL_SURFACE('',#112,2.0);
#77=FACE_OUTER_BOUND('',#113,.T.);
#78=CYLINDRICAL_SURFACE('',#114,4.0);
#79=FACE_OUTER_BOUND('',#115,.T.);
#80=CYLINDRICAL_SURFACE('',#116,2.0);
#81=FACE_OUTER_BOUND('',#117,.T.);
#82=PLANE('',#118);
#83=FACE_OUTER_BOUND('',#119,.T.);
#84=CYLINDRICAL_SURFACE('',#120,2.0);
#85=FACE_OUTER_BOUND('',#121,.T.);
#86=CYLINDRICAL_SURFACE('',#122,4.0);
#87=FACE_OUTER_BOUND('',#123,.T.);
#88=CYLINDRICAL_SURFACE('',#124,2.0);
#89=FACE_OUTER_BOUND('',#125,.T.);
#90=PLANE('',#126);
#91=FACE_OUTER_BOUND('',#127,.T.);
#92=CYLINDRICAL_SURFACE('',#128,2.0);
#93=FACE_OUTER_BOUND('',#129,.T.);
#94=PLANE('',#130);
#95=FACE_OUTER_BOUND('',#131,.T.);
#96=CYLINDRICAL_SURFACE('',#132,2.0);
#97=FACE_OUTER_BOUND('',#133,.T.);
#98=PLANE('',#134);
#99=FACE_OUTER_BOUND('',#135,.T.);
#100=PLANE('',#136);
#101=EDGE_LOOP('',(#137,#138,#139,#140));
#102=AXIS2_PLACEMENT_3D('',#141,#142,#143);
#103=EDGE_LOOP('',(#144,#145,#146,#147));
#104=AXIS2_PLACEMENT_3D('',#148,#149,#150);
#105=EDGE_LOOP('',(#151,#152,#153,#154));
#106=AXIS2_PLACEMENT_3D('',#155,#156,#157);
#107=EDGE_LOOP('',(#158,#159,#160,#161));
#108=AXIS2_PLACEMENT_3D('',#162,#163,#164);
#109=EDGE_LOOP('',(#165,#166,#167,#168));
#110=AXIS2_PLACEMENT_3D('',#169,#170,#171);
#111=EDGE_LOOP('',(#172,#173,#174,#175));
#112=AXIS2_PLACEMENT_3D('',#176,#177,#178);
#113=EDGE_LOOP('',(#179,#180,#181,#182));
#114=AXIS2_PLACEMENT_3D('',#183,#184,#185);
#115=EDGE_LOOP('',(#186,#187,#188,#189));
#116=AXIS2_PLACEMENT_3D('',#190,#191,#192);
#117=EDGE_LOOP('',(#193,#194,#195,#196));
#118=AXIS2_PLACEMENT_3D('',#197,#198,#199);
#119=EDGE_LOOP('',(#200,#201,#202,#203));
#120=AXIS2_PLACEMENT_3D('',#204,#205,#206);
#121=EDGE_LOOP('',(#207,#208,#209,#210));
#122=AXIS2_PLACEMENT_3D('',#211,#212,#213);
#123=EDGE_LOOP('',(#214,#215,#216,#217));
#124=AXIS2_PLACEMENT_3D('',#218,#219,#220);
#125=EDGE_LOOP('',(#221,#222,#223,#224));
#126=AXIS2_PLACEMENT_3D('',#225,#226,#227);
#127=EDGE_LOOP('',(#228,#229,#230,#231));
#128=AXIS2_PLACEMENT_3D('',#232,#233,#234);
#129=EDGE_LOOP('',(#235,#236,#237,#238));
#130=AXIS2_PLACEMENT_3D('',#239,#240,#241);
#131=EDGE_LOOP('',(#242,#243,#244,#245));
#132=AXIS2_PLACEMENT_3D('',#246,#247,#248);
#133=EDGE_LOOP('',(#249,#250,#251,#252,#253,#254,#255,#256,#257,#258,#259,#260,#261,#262,#263,#264));
#134=AXIS2_PLACEMENT_3D('',#265,#266,#267);
#135=EDGE_LOOP('',(#268,#269,#270,#271,#272,#273,#274,#275,#276,#277,#278,#279,#280,#281,#282,#283));
#136=AXIS2_PLACEMENT_3D('',#284,#285,#286);
#137=ORIENTED_EDGE('',*,*,#287,.T.);
#138=ORIENTED_EDGE('',*,*,#288,.F.);
#139=ORIENTED_EDGE('',*,*,#289,.T.);
#140=ORIENTED_EDGE('',*,*,#290,.T.);
#141=CARTESIAN_POINT('',(0.0,0.0,0.0));
#142=DIRECTION('',(0.0,-1.0,0.0));
#143=DIRECTION('',(1.0,0.0,0.0));
#144=ORIENTED_EDGE('',*,*,#291,.T.);
#145=ORIENTED_EDGE('',*,*,#292,.F.);
#146=ORIENTED_EDGE('',*,*,#293,.T.);
#147=ORIENTED_EDGE('',*,*,#288,.T.);
#148=CARTESIAN_POINT('',(-28.9999999999999,2.0,0.0));
#149=DIRECTION('',(0.0,0.0,1.0));
#150=DIRECTION('',(1.0,0.0,0.0));
#151=ORIENTED_EDGE('',*,*,#294,.T.);
#152=ORIENTED_EDGE('',*,*,#295,.F.);
#153=ORIENTED_EDGE('',*,*,#296,.F.);
#154=ORIENTED_EDGE('',*,*,#292,.T.);
#155=CARTESIAN_POINT('',(-29.85885287615,6.2588190451,0.0));
#156=DIRECTION('',(-0.965925826288777,0.25881904510361,0.0));
#157=DIRECTION('',(-0.25881904510361,-0.965925826288777,-0.0));
#158=ORIENTED_EDGE('',*,*,#297,.T.);
#159=ORIENTED_EDGE('',*,*,#298,.F.);
#160=ORIENTED_EDGE('',*,*,#299,.T.);
#161=ORIENTED_EDGE('',*,*,#295,.T.);
#162=CARTESIAN_POINT('',(-26.7858540997,10.0,0.0));
#163=DIRECTION('',(0.0,0.0,1.0));
#164=DIRECTION('',(1.0,0.0,0.0));
#165=ORIENTED_EDGE('',*,*,#300,.T.);
#166=ORIENTED_EDGE('',*,*,#301,.F.);
#167=ORIENTED_EDGE('',*,*,#302,.F.);
#168=ORIENTED_EDGE('',*,*,#298,.T.);
#169=CARTESIAN_POINT('',(-25.89292704985,12.0,0.0));
#170=DIRECTION('',(0.0,1.0,0.0));
#171=DIRECTION('',(-1.0,0.0,0.0));
#172=ORIENTED_EDGE('',*,*,#303,.T.);
#173=ORIENTED_EDGE('',*,*,#304,.F.);
#174=ORIENTED_EDGE('',*,*,#305,.T.);
#175=ORIENTED_EDGE('',*,*,#301,.T.);
#176=CARTESIAN_POINT('',(-24.9999999999999,10.0,0.0));
#177=DIRECTION('',(0.0,0.0,1.0));
#178=DIRECTION('',(1.0,0.0,0.0));
#179=ORIENTED_EDGE('',*,*,#306,.T.);
#180=ORIENTED_EDGE('',*,*,#307,.F.);
#181=ORIENTED_EDGE('',*,*,#308,.F.);
#182=ORIENTED_EDGE('',*,*,#304,.T.);
#183=CARTESIAN_POINT('',(-19.0,10.0,0.0));
#184=DIRECTION('',(0.0,0.0,1.0));
#185=DIRECTION('',(1.0,0.0,0.0));
#186=ORIENTED_EDGE('',*,*,#309,.T.);
#187=ORIENTED_EDGE('',*,*,#310,.F.);
#188=ORIENTED_EDGE('',*,*,#311,.T.);
#189=ORIENTED_EDGE('',*,*,#307,.T.);
#190=CARTESIAN_POINT('',(-13.0,10.0,0.0));
#191=DIRECTION('',(0.0,0.0,1.0));
#192=DIRECTION('',(1.0,0.0,0.0));
#193=ORIENTED_EDGE('',*,*,#312,.T.);
#194=ORIENTED_EDGE('',*,*,#313,.F.);
#195=ORIENTED_EDGE('',*,*,#314,.F.);
#196=ORIENTED_EDGE('',*,*,#310,.T.);
#197=CARTESIAN_POINT('',(6.5,12.0,0.0));
#198=DIRECTION('',(0.0,1.0,-0.0));
#199=DIRECTION('',(-1.0,0.0,0.0));
#200=ORIENTED_EDGE('',*,*,#315,.T.);
#201=ORIENTED_EDGE('',*,*,#316,.F.);
#202=ORIENTED_EDGE('',*,*,#317,.T.);
#203=ORIENTED_EDGE('',*,*,#313,.T.);
#204=CARTESIAN_POINT('',(13.0,10.0,0.0));
#205=DIRECTION('',(0.0,0.0,1.0));
#206=DIRECTION('',(1.0,0.0,0.0));
#207=ORIENTED_EDGE('',*,*,#318,.T.);
#208=ORIENTED_EDGE('',*,*,#319,.F.);
#209=ORIENTED_EDGE('',*,*,#320,.F.);
#210=ORIENTED_EDGE('',*,*,#316,.T.);
#211=CARTESIAN_POINT('',(19.0,10.0,0.0));
#212=DIRECTION('',(0.0,0.0,1.0));
#213=DIRECTION('',(1.0,0.0,0.0));
#214=ORIENTED_EDGE('',*,*,#321,.T.);
#215=ORIENTED_EDGE('',*,*,#322,.F.);
#216=ORIENTED_EDGE('',*,*,#323,.T.);
#217=ORIENTED_EDGE('',*,*,#319,.T.);
#218=CARTESIAN_POINT('',(24.9999999999999,10.0,0.0));
#219=DIRECTION('',(0.0,0.0,1.0));
#220=DIRECTION('',(1.0,0.0,0.0));
#221=ORIENTED_EDGE('',*,*,#324,.T.);
#222=ORIENTED_EDGE('',*,*,#325,.F.);
#223=ORIENTED_EDGE('',*,*,#326,.T.);
#224=ORIENTED_EDGE('',*,*,#322,.T.);
#225=CARTESIAN_POINT('',(25.89292704985,12.0,0.0));
#226=DIRECTION('',(0.0,1.0,-0.0));
#227=DIRECTION('',(-1.0,0.0,0.0));
#228=ORIENTED_EDGE('',*,*,#327,.T.);
#229=ORIENTED_EDGE('',*,*,#328,.F.);
#230=ORIENTED_EDGE('',*,*,#329,.T.);
#231=ORIENTED_EDGE('',*,*,#325,.T.);
#232=CARTESIAN_POINT('',(26.7858540997,10.0,0.0));
#233=DIRECTION('',(0.0,0.0,1.0));
#234=DIRECTION('',(1.0,0.0,0.0));
#235=ORIENTED_EDGE('',*,*,#330,.T.);
#236=ORIENTED_EDGE('',*,*,#331,.F.);
#237=ORIENTED_EDGE('',*,*,#332,.T.);
#238=ORIENTED_EDGE('',*,*,#328,.T.);
#239=CARTESIAN_POINT('',(29.8588528761486,6.25881904510507,0.0));
#240=DIRECTION('',(0.965925826288777,0.25881904510361,-0.0));
#241=DIRECTION('',(-0.25881904510361,0.965925826288777,0.0));
#242=ORIENTED_EDGE('',*,*,#333,.T.);
#243=ORIENTED_EDGE('',*,*,#290,.F.);
#244=ORIENTED_EDGE('',*,*,#334,.T.);
#245=ORIENTED_EDGE('',*,*,#331,.T.);
#246=CARTESIAN_POINT('',(28.9999999999999,2.0,0.0));
#247=DIRECTION('',(0.0,0.0,1.0));
#248=DIRECTION('',(1.0,0.0,0.0));
#249=ORIENTED_EDGE('',*,*,#287,.F.);
#250=ORIENTED_EDGE('',*,*,#333,.F.);
#251=ORIENTED_EDGE('',*,*,#330,.F.);
#252=ORIENTED_EDGE('',*,*,#327,.F.);
#253=ORIENTED_EDGE('',*,*,#324,.F.);
#254=ORIENTED_EDGE('',*,*,#321,.F.);
#255=ORIENTED_EDGE('',*,*,#318,.F.);
#256=ORIENTED_EDGE('',*,*,#315,.F.);
#257=ORIENTED_EDGE('',*,*,#312,.F.);
#258=ORIENTED_EDGE('',*,*,#309,.F.);
#259=ORIENTED_EDGE('',*,*,#306,.F.);
#260=ORIENTED_EDGE('',*,*,#303,.F.);
#261=ORIENTED_EDGE('',*,*,#300,.F.);
#262=ORIENTED_EDGE('',*,*,#297,.F.);
#263=ORIENTED_EDGE('',*,*,#294,.F.);
#264=ORIENTED_EDGE('',*,*,#291,.F.);
#265=CARTESIAN_POINT('',(3.33066907387547E-15,5.6007351029145,10.0));
#266=DIRECTION('',(0.0,0.0,1.0));
#267=DIRECTION('',(1.0,0.0,0.0));
#268=ORIENTED_EDGE('',*,*,#334,.F.);
#269=ORIENTED_EDGE('',*,*,#289,.F.);
#270=ORIENTED_EDGE('',*,*,#293,.F.);
#271=ORIENTED_EDGE('',*,*,#296,.T.);
#272=ORIENTED_EDGE('',*,*,#299,.F.);
#273=ORIENTED_EDGE('',*,*,#302,.T.);
#274=ORIENTED_EDGE('',*,*,#305,.F.);
#275=ORIENTED_EDGE('',*,*,#308,.T.);
#276=ORIENTED_EDGE('',*,*,#311,.F.);
#277=ORIENTED_EDGE('',*,*,#314,.T.);
#278=ORIENTED_EDGE('',*,*,#317,.F.);
#279=ORIENTED_EDGE('',*,*,#320,.T.);
#280=ORIENTED_EDGE('',*,*,#323,.F.);
#281=ORIENTED_EDGE('',*,*,#326,.F.);
#282=ORIENTED_EDGE('',*,*,#329,.F.);
#283=ORIENTED_EDGE('',*,*,#332,.F.);
#284=CARTESIAN_POINT('',(3.33066907387547E-15,5.6007351029145,0.0));
#285=DIRECTION('',(0.0,0.0,1.0));
#286=DIRECTION('',(1.0,0.0,0.0));
#287=EDGE_CURVE('',#335,#336,#337,.T.);
#288=EDGE_CURVE('',#338,#336,#339,.T.);
#289=EDGE_CURVE('',#338,#340,#341,.T.);
#290=EDGE_CURVE('',#340,#335,#342,.T.);
#291=EDGE_CURVE('',#336,#343,#344,.T.);
#292=EDGE_CURVE('',#345,#343,#346,.T.);
#293=EDGE_CURVE('',#345,#338,#347,.T.);
#294=EDGE_CURVE('',#343,#348,#349,.T.);
#295=EDGE_CURVE('',#350,#348,#351,.T.);
#296=EDGE_CURVE('',#345,#350,#352,.T.);
#297=EDGE_CURVE('',#348,#353,#354,.T.);
#298=EDGE_CURVE('',#355,#353,#356,.T.);
#299=EDGE_CURVE('',#355,#350,#357,.T.);
#300=EDGE_CURVE('',#353,#358,#359,.T.);
#301=EDGE_CURVE('',#360,#358,#361,.T.);
#302=EDGE_CURVE('',#355,#360,#362,.T.);
#303=EDGE_CURVE('',#358,#363,#364,.T.);
#304=EDGE_CURVE('',#365,#363,#366,.T.);
#305=EDGE_CURVE('',#365,#360,#367,.T.);
#306=EDGE_CURVE('',#363,#368,#369,.T.);
#307=EDGE_CURVE('',#370,#368,#371,.T.);
#308=EDGE_CURVE('',#365,#370,#372,.T.);
#309=EDGE_CURVE('',#368,#373,#374,.T.);
#310=EDGE_CURVE('',#375,#373,#376,.T.);
#311=EDGE_CURVE('',#375,#370,#377,.T.);
#312=EDGE_CURVE('',#373,#378,#379,.T.);
#313=EDGE_CURVE('',#380,#378,#381,.T.);
#314=EDGE_CURVE('',#375,#380,#382,.T.);
#315=EDGE_CURVE('',#378,#383,#384,.T.);
#316=EDGE_CURVE('',#385,#383,#386,.T.);
#317=EDGE_CURVE('',#385,#380,#387,.T.);
#318=EDGE_CURVE('',#383,#388,#389,.T.);
#319=EDGE_CURVE('',#390,#388,#391,.T.);
#320=EDGE_CURVE('',#385,#390,#392,.T.);
#321=EDGE_CURVE('',#388,#393,#394,.T.);
#322=EDGE_CURVE('',#395,#393,#396,.T.);
#323=EDGE_CURVE('',#395,#390,#397,.T.);
#324=EDGE_CURVE('',#393,#398,#399,.T.);
#325=EDGE_CURVE('',#400,#398,#401,.T.);
#326=EDGE_CURVE('',#400,#395,#402,.T.);
#327=EDGE_CURVE('',#398,#403,#404,.T.);
#328=EDGE_CURVE('',#405,#403,#406,.T.);
#329=EDGE_CURVE('',#405,#400,#407,.T.);
#330=EDGE_CURVE('',#403,#408,#409,.T.);
#331=EDGE_CURVE('',#410,#408,#411,.T.);
#332=EDGE_CURVE('',#410,#405,#412,.T.);
#333=EDGE_CURVE('',#408,#335,#413,.T.);
#334=EDGE_CURVE('',#340,#410,#414,.T.);
#335=VERTEX_POINT('',#415);
#336=VERTEX_POINT('',#416);
#337=LINE('',#417,#418);
#338=VERTEX_POINT('',#419);
#339=LINE('',#420,#421);
#340=VERTEX_POINT('',#422);
#341=LINE('',#423,#424);
#342=LINE('',#425,#426);
#343=VERTEX_POINT('',#427);
#344=CIRCLE('',#428,2.0);
#345=VERTEX_POINT('',#429);
#346=LINE('',#430,#431);
#347=CIRCLE('',#432,2.0);
#348=VERTEX_POINT('',#433);
#349=LINE('',#434,#435);
#350=VERTEX_POINT('',#436);
#351=LINE('',#437,#438);
#352=LINE('',#439,#440);
#353=VERTEX_POINT('',#441);
#354=CIRCLE('',#442,2.0);
#355=VERTEX_POINT('',#443);
#356=LINE('',#444,#445);
#357=CIRCLE('',#446,2.0);
#358=VERTEX_POINT('',#447);
#359=LINE('',#448,#449);
#360=VERTEX_POINT('',#450);
#361=LINE('',#451,#452);
#362=LINE('',#453,#454);
#363=VERTEX_POINT('',#455);
#364=CIRCLE('',#456,2.0);
#365=VERTEX_POINT('',#457);
#366=LINE('',#458,#459);
#367=CIRCLE('',#460,2.0);
#368=VERTEX_POINT('',#461);
#369=CIRCLE('',#462,4.0);
#370=VERTEX_POINT('',#463);
#371=LINE('',#464,#465);
#372=CIRCLE('',#466,4.0);
#373=VERTEX_POINT('',#467);
#374=CIRCLE('',#468,2.0);
#375=VERTEX_POINT('',#469);
#376=LINE('',#470,#471);
#377=CIRCLE('',#472,2.0);
#378=VERTEX_POINT('',#473);
#379=LINE('',#474,#475);
#380=VERTEX_POINT('',#476);
#381=LINE('',#477,#478);
#382=LINE('',#479,#480);
#383=VERTEX_POINT('',#481);
#384=CIRCLE('',#482,2.0);
#385=VERTEX_POINT('',#483);
#386=LINE('',#484,#485);
#387=CIRCLE('',#486,2.0);
#388=VERTEX_POINT('',#487);
#389=CIRCLE('',#488,4.0);
#390=VERTEX_POINT('',#489);
#391=LINE('',#490,#491);
#392=CIRCLE('',#492,4.0);
#393=VERTEX_POINT('',#493);
#394=CIRCLE('',#494,2.0);
#395=VERTEX_POINT('',#495);
#396=LINE('',#496,#497);
#397=CIRCLE('',#498,2.0);
#398=VERTEX_POINT('',#499);
#399=LINE('',#500,#501);
#400=VERTEX_POINT('',#502);
#401=LINE('',#503,#504);
#402=LINE('',#505,#506);
#403=VERTEX_POINT('',#507);
#404=CIRCLE('',#508,2.0);
#405=VERTEX_POINT('',#509);
#406=LINE('',#510,#511);
#407=CIRCLE('',#512,2.0);
#408=VERTEX_POINT('',#513);
#409=LINE('',#514,#515);
#410=VERTEX_POINT('',#516);
#411=LINE('',#517,#518);
#412=LINE('',#519,#520);
#413=CIRCLE('',#521,2.0);
#414=CIRCLE('',#522,2.0);
#415=CARTESIAN_POINT('',(28.9999999999999,0.0,10.0));
#416=CARTESIAN_POINT('',(-28.9999999999999,0.0,10.0));
#417=CARTESIAN_POINT('',(-28.9999999999999,0.0,10.0));
#418=VECTOR('',#523,1.0);
#419=CARTESIAN_POINT('',(-28.9999999999999,0.0,0.0));
#420=CARTESIAN_POINT('',(-28.9999999999999,0.0,0.0));
#421=VECTOR('',#524,1.0);
#422=CARTESIAN_POINT('',(28.9999999999999,0.0,0.0));
#423=CARTESIAN_POINT('',(-28.9999999999999,0.0,0.0));
#424=VECTOR('',#525,1.0);
#425=CARTESIAN_POINT('',(28.9999999999999,0.0,0.0));
#426=VECTOR('',#526,1.0);
#427=CARTESIAN_POINT('',(-30.9999999999999,2.0,10.0));
#428=AXIS2_PLACEMENT_3D('',#527,#528,#529);
#429=CARTESIAN_POINT('',(-30.9999999999999,2.0,0.0));
#430=CARTESIAN_POINT('',(-30.9999999999999,2.0,0.0));
#431=VECTOR('',#530,1.0);
#432=AXIS2_PLACEMENT_3D('',#531,#532,#533);
#433=CARTESIAN_POINT('',(-28.7177057523,10.5176380902,10.0));
#434=CARTESIAN_POINT('',(-30.9999999999999,2.0,10.0));
#435=VECTOR('',#534,1.0);
#436=CARTESIAN_POINT('',(-28.7177057523,10.5176380902,0.0));
#437=CARTESIAN_POINT('',(-28.7177057523,10.5176380902,0.0));
#438=VECTOR('',#535,1.0);
#439=CARTESIAN_POINT('',(-30.9999999999999,2.0,0.0));
#440=VECTOR('',#536,1.0);
#441=CARTESIAN_POINT('',(-26.7858540997,12.0,10.0));
#442=AXIS2_PLACEMENT_3D('',#537,#538,#539);
#443=CARTESIAN_POINT('',(-26.7858540997,12.0,0.0));
#444=CARTESIAN_POINT('',(-26.7858540997,12.0,0.0));
#445=VECTOR('',#540,1.0);
#446=AXIS2_PLACEMENT_3D('',#541,#542,#543);
#447=CARTESIAN_POINT('',(-24.9999999999999,12.0,10.0));
#448=CARTESIAN_POINT('',(-26.7858540997,12.0,10.0));
#449=VECTOR('',#544,1.0);
#450=CARTESIAN_POINT('',(-24.9999999999999,12.0,0.0));
#451=CARTESIAN_POINT('',(-24.9999999999999,12.0,0.0));
#452=VECTOR('',#545,1.0);
#453=CARTESIAN_POINT('',(-26.7858540997,12.0,0.0));
#454=VECTOR('',#546,1.0);
#455=CARTESIAN_POINT('',(-22.9999999999999,10.0,10.0));
#456=AXIS2_PLACEMENT_3D('',#547,#548,#549);
#457=CARTESIAN_POINT('',(-22.9999999999999,10.0,0.0));
#458=CARTESIAN_POINT('',(-22.9999999999999,10.0,0.0));
#459=VECTOR('',#550,1.0);
#460=AXIS2_PLACEMENT_3D('',#551,#552,#553);
#461=CARTESIAN_POINT('',(-15.0,10.0,10.0));
#462=AXIS2_PLACEMENT_3D('',#554,#555,#556);
#463=CARTESIAN_POINT('',(-15.0,10.0,0.0));
#464=CARTESIAN_POINT('',(-15.0,10.0,0.0));
#465=VECTOR('',#557,1.0);
#466=AXIS2_PLACEMENT_3D('',#558,#559,#560);
#467=CARTESIAN_POINT('',(-13.0,12.0,10.0));
#468=AXIS2_PLACEMENT_3D('',#561,#562,#563);
#469=CARTESIAN_POINT('',(-13.0,12.0,0.0));
#470=CARTESIAN_POINT('',(-13.0,12.0,0.0));
#471=VECTOR('',#564,1.0);
#472=AXIS2_PLACEMENT_3D('',#565,#566,#567);
#473=CARTESIAN_POINT('',(13.0,12.0,10.0));
#474=CARTESIAN_POINT('',(-13.0,12.0,10.0));
#475=VECTOR('',#568,1.0);
#476=CARTESIAN_POINT('',(13.0,12.0,0.0));
#477=CARTESIAN_POINT('',(13.0,12.0,0.0));
#478=VECTOR('',#569,1.0);
#479=CARTESIAN_POINT('',(-13.0,12.0,0.0));
#480=VECTOR('',#570,1.0);
#481=CARTESIAN_POINT('',(15.0,10.0,10.0));
#482=AXIS2_PLACEMENT_3D('',#571,#572,#573);
#483=CARTESIAN_POINT('',(15.0,10.0,0.0));
#484=CARTESIAN_POINT('',(15.0,10.0,0.0));
#485=VECTOR('',#574,1.0);
#486=AXIS2_PLACEMENT_3D('',#575,#576,#577);
#487=CARTESIAN_POINT('',(23.0,10.0,10.0));
#488=AXIS2_PLACEMENT_3D('',#578,#579,#580);
#489=CARTESIAN_POINT('',(23.0,10.0,0.0));
#490=CARTESIAN_POINT('',(23.0,10.0,0.0));
#491=VECTOR('',#581,1.0);
#492=AXIS2_PLACEMENT_3D('',#582,#583,#584);
#493=CARTESIAN_POINT('',(24.9999999999999,12.0,10.0));
#494=AXIS2_PLACEMENT_3D('',#585,#586,#587);
#495=CARTESIAN_POINT('',(24.9999999999999,12.0,0.0));
#496=CARTESIAN_POINT('',(24.9999999999999,12.0,0.0));
#497=VECTOR('',#588,1.0);
#498=AXIS2_PLACEMENT_3D('',#589,#590,#591);
#499=CARTESIAN_POINT('',(26.7858540997,12.0,10.0));
#500=CARTESIAN_POINT('',(26.7858540997,12.0,10.0));
#501=VECTOR('',#592,1.0);
#502=CARTESIAN_POINT('',(26.7858540997,12.0,0.0));
#503=CARTESIAN_POINT('',(26.7858540997,12.0,0.0));
#504=VECTOR('',#593,1.0);
#505=CARTESIAN_POINT('',(26.7858540997,12.0,0.0));
#506=VECTOR('',#594,1.0);
#507=CARTESIAN_POINT('',(28.7177057522781,10.517638090205,10.0));
#508=AXIS2_PLACEMENT_3D('',#595,#596,#597);
#509=CARTESIAN_POINT('',(28.7177057522781,10.517638090205,0.0));
#510=CARTESIAN_POINT('',(28.7177057522781,10.517638090205,0.0));
#511=VECTOR('',#598,1.0);
#512=AXIS2_PLACEMENT_3D('',#599,#600,#601);
#513=CARTESIAN_POINT('',(30.9999999999999,2.0,10.0));
#514=CARTESIAN_POINT('',(30.9999999999999,2.0,10.0));
#515=VECTOR('',#602,1.0);
#516=CARTESIAN_POINT('',(30.9999999999999,2.0,0.0));
#517=CARTESIAN_POINT('',(30.9999999999999,2.0,0.0));
#518=VECTOR('',#603,1.0);
#519=CARTESIAN_POINT('',(30.9999999999999,2.0,0.0));
#520=VECTOR('',#604,1.0);
#521=AXIS2_PLACEMENT_3D('',#605,#606,#607);
#522=AXIS2_PLACEMENT_3D('',#608,#609,#610);
#523=DIRECTION('',(-1.0,-0.0,-0.0));
#524=DIRECTION('',(0.0,0.0,1.0));
#525=DIRECTION('',(1.0,0.0,0.0));
#526=DIRECTION('',(0.0,0.0,1.0));
#527=CARTESIAN_POINT('',(-28.9999999999999,2.0,10.0));
#528=DIRECTION('',(0.0,0.0,-1.0));
#529=DIRECTION('',(1.0,0.0,0.0));
#530=DIRECTION('',(0.0,0.0,1.0));
#531=CARTESIAN_POINT('',(-28.9999999999999,2.0,0.0));
#532=DIRECTION('',(0.0,0.0,1.0));
#533=DIRECTION('',(1.0,0.0,0.0));
#534=DIRECTION('',(0.25881904510361,0.965925826288777,0.0));
#535=DIRECTION('',(0.0,0.0,1.0));
#536=DIRECTION('',(0.25881904510361,0.965925826288777,0.0));
#537=CARTESIAN_POINT('',(-26.7858540997,10.0,10.0));
#538=DIRECTION('',(0.0,0.0,-1.0));
#539=DIRECTION('',(1.0,0.0,0.0));
#540=DIRECTION('',(0.0,0.0,1.0));
#541=CARTESIAN_POINT('',(-26.7858540997,10.0,0.0));
#542=DIRECTION('',(0.0,0.0,1.0));
#543=DIRECTION('',(1.0,0.0,0.0));
#544=DIRECTION('',(1.0,0.0,0.0));
#545=DIRECTION('',(0.0,0.0,1.0));
#546=DIRECTION('',(1.0,0.0,0.0));
#547=CARTESIAN_POINT('',(-24.9999999999999,10.0,10.0));
#548=DIRECTION('',(0.0,0.0,-1.0));
#549=DIRECTION('',(1.0,0.0,0.0));
#550=DIRECTION('',(0.0,0.0,1.0));
#551=CARTESIAN_POINT('',(-24.9999999999999,10.0,0.0));
#552=DIRECTION('',(0.0,0.0,1.0));
#553=DIRECTION('',(1.0,0.0,0.0));
#554=CARTESIAN_POINT('',(-19.0,10.0,10.0));
#555=DIRECTION('',(0.0,0.0,1.0));
#556=DIRECTION('',(1.0,0.0,0.0));
#557=DIRECTION('',(0.0,0.0,1.0));
#558=CARTESIAN_POINT('',(-19.0,10.0,0.0));
#559=DIRECTION('',(0.0,0.0,1.0));
#560=DIRECTION('',(1.0,0.0,0.0));
#561=CARTESIAN_POINT('',(-13.0,10.0,10.0));
#562=DIRECTION('',(0.0,0.0,-1.0));
#563=DIRECTION('',(1.0,0.0,0.0));
#564=DIRECTION('',(0.0,0.0,1.0));
#565=CARTESIAN_POINT('',(-13.0,10.0,0.0));
#566=DIRECTION('',(0.0,0.0,1.0));
#567=DIRECTION('',(1.0,0.0,0.0));
#568=DIRECTION('',(1.0,0.0,0.0));
#569=DIRECTION('',(0.0,0.0,1.0));
#570=DIRECTION('',(1.0,0.0,0.0));
#571=CARTESIAN_POINT('',(13.0,10.0,10.0));
#572=DIRECTION('',(0.0,0.0,-1.0));
#573=DIRECTION('',(1.0,0.0,0.0));
#574=DIRECTION('',(0.0,0.0,1.0));
#575=CARTESIAN_POINT('',(13.0,10.0,0.0));
#576=DIRECTION('',(0.0,0.0,1.0));
#577=DIRECTION('',(1.0,0.0,0.0));
#578=CARTESIAN_POINT('',(19.0,10.0,10.0));
#579=DIRECTION('',(0.0,0.0,1.0));
#580=DIRECTION('',(1.0,0.0,0.0));
#581=DIRECTION('',(0.0,0.0,1.0));
#582=CARTESIAN_POINT('',(19.0,10.0,0.0));
#583=DIRECTION('',(0.0,0.0,1.0));
#584=DIRECTION('',(1.0,0.0,0.0));
#585=CARTESIAN_POINT('',(24.9999999999999,10.0,10.0));
#586=DIRECTION('',(0.0,0.0,-1.0));
#587=DIRECTION('',(1.0,0.0,0.0));
#588=DIRECTION('',(0.0,0.0,1.0));
#589=CARTESIAN_POINT('',(24.9999999999999,10.0,0.0));
#590=DIRECTION('',(0.0,0.0,1.0));
#591=DIRECTION('',(1.0,0.0,0.0));
#592=DIRECTION('',(1.0,0.0,0.0));
#593=DIRECTION('',(0.0,0.0,1.0));
#594=DIRECTION('',(-1.0,0.0,0.0));
#595=CARTESIAN_POINT('',(26.7858540997,10.0,10.0));
#596=DIRECTION('',(0.0,0.0,-1.0));
#597=DIRECTION('',(1.0,0.0,0.0));
#598=DIRECTION('',(0.0,0.0,1.0));
#599=CARTESIAN_POINT('',(26.7858540997,10.0,0.0));
#600=DIRECTION('',(0.0,0.0,1.0));
#601=DIRECTION('',(1.0,0.0,0.0));
#602=DIRECTION('',(0.25881904510361,-0.965925826288777,0.0));
#603=DIRECTION('',(0.0,0.0,1.0));
#604=DIRECTION('',(-0.25881904510361,0.965925826288777,0.0));
#605=CARTESIAN_POINT('',(28.9999999999999,2.0,10.0));
#606=DIRECTION('',(0.0,0.0,-1.0));
#607=DIRECTION('',(1.0,0.0,0.0));
#608=CARTESIAN_POINT('',(28.9999999999999,2.0,0.0));
#609=DIRECTION('',(0.0,0.0,1.0));
#610=DIRECTION('',(1.0,0.0,0.0));
ENDSEC;
END-ISO-10303-21;
