ISO-10303-21;
HEADER;
/* Generated by software containing ST-Developer
 * from STEP Tools, Inc. (www.steptools.com) 
 */
/* OPTION: using custom renumber hook */

FILE_DESCRIPTION(
/* description */ ('STEP AP203'),
/* implementation_level */ '2;1');

FILE_NAME(
/* name */ 'LMH10L',
/* time_stamp */ '2024-02-28T11:21:16+01:00',
/* author */ ('License CC BY-ND 4.0'),
/* organization */ ('CADENAS'),
/* preprocessor_version */ 'ST-DEVELOPER v19.3',
/* originating_system */ 'PARTsolutions',
/* authorisation */ '  ');

FILE_SCHEMA (('CONFIG_CONTROL_DESIGN'));
ENDSEC;

DATA;
#10=PROPERTY_DEFINITION_REPRESENTATION(#14,#12);
#11=PROPERTY_DEFINITION_REPRESENTATION(#15,#13);
#12=REPRESENTATION('',(#16),#575);
#13=REPRESENTATION('',(#17),#575);
#14=PROPERTY_DEFINITION('pmi validation property','',#580);
#15=PROPERTY_DEFINITION('pmi validation property','',#580);
#16=VALUE_REPRESENTATION_ITEM('number of annotations',COUNT_MEASURE(0.));
#17=VALUE_REPRESENTATION_ITEM('number of views',COUNT_MEASURE(0.));
#18=SHAPE_REPRESENTATION_RELATIONSHIP('','',#328,#19);
#19=ADVANCED_BREP_SHAPE_REPRESENTATION('',(#326),#575);
#20=PLANE('',#337);
#21=PLANE('',#344);
#22=PLANE('',#350);
#23=PLANE('',#359);
#24=PLANE('',#360);
#25=PLANE('',#363);
#26=PLANE('',#368);
#27=LINE('',#480,#35);
#28=LINE('',#482,#36);
#29=LINE('',#507,#37);
#30=LINE('',#508,#38);
#31=LINE('',#522,#39);
#32=LINE('',#526,#40);
#33=LINE('',#544,#41);
#34=LINE('',#548,#42);
#35=VECTOR('',#381,1000.);
#36=VECTOR('',#382,1000.);
#37=VECTOR('',#399,1000.);
#38=VECTOR('',#400,1000.);
#39=VECTOR('',#419,1000.);
#40=VECTOR('',#422,1000.);
#41=VECTOR('',#433,1000.);
#42=VECTOR('',#436,1000.);
#43=CYLINDRICAL_SURFACE('',#333,19.5);
#44=CYLINDRICAL_SURFACE('',#342,5.);
#45=CYLINDRICAL_SURFACE('',#348,9.5);
#46=CYLINDRICAL_SURFACE('',#356,19.5);
#47=CYLINDRICAL_SURFACE('',#361,2.25);
#48=CYLINDRICAL_SURFACE('',#365,4.);
#49=CYLINDRICAL_SURFACE('',#366,4.);
#50=CYLINDRICAL_SURFACE('',#370,2.25);
#51=CIRCLE('',#331,19.3);
#52=CIRCLE('',#332,19.5);
#53=CIRCLE('',#334,19.5);
#54=CIRCLE('',#336,19.3);
#55=CIRCLE('',#338,5.);
#56=CIRCLE('',#339,4.);
#57=CIRCLE('',#340,4.);
#58=CIRCLE('',#341,19.3);
#59=CIRCLE('',#343,5.);
#60=CIRCLE('',#345,9.3);
#61=CIRCLE('',#347,9.5);
#62=CIRCLE('',#349,9.5);
#63=CIRCLE('',#351,19.3);
#64=CIRCLE('',#352,2.25);
#65=CIRCLE('',#353,2.25);
#66=CIRCLE('',#355,19.5);
#67=CIRCLE('',#357,19.5);
#68=CIRCLE('',#362,2.25);
#69=CIRCLE('',#364,4.);
#70=CIRCLE('',#367,4.);
#71=CIRCLE('',#369,2.25);
#72=ORIENTED_EDGE('',*,*,#146,.F.);
#73=ORIENTED_EDGE('',*,*,#147,.F.);
#74=ORIENTED_EDGE('',*,*,#148,.F.);
#75=ORIENTED_EDGE('',*,*,#149,.T.);
#76=ORIENTED_EDGE('',*,*,#150,.F.);
#77=ORIENTED_EDGE('',*,*,#149,.F.);
#78=ORIENTED_EDGE('',*,*,#151,.T.);
#79=ORIENTED_EDGE('',*,*,#152,.T.);
#80=ORIENTED_EDGE('',*,*,#153,.F.);
#81=ORIENTED_EDGE('',*,*,#152,.F.);
#82=ORIENTED_EDGE('',*,*,#154,.F.);
#83=ORIENTED_EDGE('',*,*,#155,.T.);
#84=ORIENTED_EDGE('',*,*,#156,.T.);
#85=ORIENTED_EDGE('',*,*,#157,.T.);
#86=ORIENTED_EDGE('',*,*,#158,.F.);
#87=ORIENTED_EDGE('',*,*,#159,.F.);
#88=ORIENTED_EDGE('',*,*,#160,.F.);
#89=ORIENTED_EDGE('',*,*,#155,.F.);
#90=ORIENTED_EDGE('',*,*,#161,.F.);
#91=ORIENTED_EDGE('',*,*,#162,.T.);
#92=ORIENTED_EDGE('',*,*,#156,.F.);
#93=ORIENTED_EDGE('',*,*,#163,.T.);
#94=ORIENTED_EDGE('',*,*,#162,.F.);
#95=ORIENTED_EDGE('',*,*,#164,.T.);
#96=ORIENTED_EDGE('',*,*,#163,.F.);
#97=ORIENTED_EDGE('',*,*,#165,.T.);
#98=ORIENTED_EDGE('',*,*,#164,.F.);
#99=ORIENTED_EDGE('',*,*,#166,.T.);
#100=ORIENTED_EDGE('',*,*,#167,.T.);
#101=ORIENTED_EDGE('',*,*,#168,.T.);
#102=ORIENTED_EDGE('',*,*,#147,.T.);
#103=ORIENTED_EDGE('',*,*,#169,.T.);
#104=ORIENTED_EDGE('',*,*,#170,.T.);
#105=ORIENTED_EDGE('',*,*,#165,.F.);
#106=ORIENTED_EDGE('',*,*,#171,.F.);
#107=ORIENTED_EDGE('',*,*,#167,.F.);
#108=ORIENTED_EDGE('',*,*,#172,.F.);
#109=ORIENTED_EDGE('',*,*,#173,.T.);
#110=ORIENTED_EDGE('',*,*,#174,.T.);
#111=ORIENTED_EDGE('',*,*,#175,.T.);
#112=ORIENTED_EDGE('',*,*,#176,.F.);
#113=ORIENTED_EDGE('',*,*,#173,.F.);
#114=ORIENTED_EDGE('',*,*,#177,.F.);
#115=ORIENTED_EDGE('',*,*,#175,.F.);
#116=ORIENTED_EDGE('',*,*,#178,.F.);
#117=ORIENTED_EDGE('',*,*,#159,.T.);
#118=ORIENTED_EDGE('',*,*,#148,.T.);
#119=ORIENTED_EDGE('',*,*,#168,.F.);
#120=ORIENTED_EDGE('',*,*,#171,.T.);
#121=ORIENTED_EDGE('',*,*,#176,.T.);
#122=ORIENTED_EDGE('',*,*,#177,.T.);
#123=ORIENTED_EDGE('',*,*,#161,.T.);
#124=ORIENTED_EDGE('',*,*,#154,.T.);
#125=ORIENTED_EDGE('',*,*,#151,.F.);
#126=ORIENTED_EDGE('',*,*,#146,.T.);
#127=ORIENTED_EDGE('',*,*,#150,.T.);
#128=ORIENTED_EDGE('',*,*,#153,.T.);
#129=ORIENTED_EDGE('',*,*,#160,.T.);
#130=ORIENTED_EDGE('',*,*,#178,.T.);
#131=ORIENTED_EDGE('',*,*,#174,.F.);
#132=ORIENTED_EDGE('',*,*,#172,.T.);
#133=ORIENTED_EDGE('',*,*,#166,.F.);
#134=ORIENTED_EDGE('',*,*,#179,.T.);
#135=ORIENTED_EDGE('',*,*,#170,.F.);
#136=ORIENTED_EDGE('',*,*,#180,.T.);
#137=ORIENTED_EDGE('',*,*,#179,.F.);
#138=ORIENTED_EDGE('',*,*,#158,.T.);
#139=ORIENTED_EDGE('',*,*,#180,.F.);
#140=ORIENTED_EDGE('',*,*,#181,.T.);
#141=ORIENTED_EDGE('',*,*,#157,.F.);
#142=ORIENTED_EDGE('',*,*,#182,.T.);
#143=ORIENTED_EDGE('',*,*,#181,.F.);
#144=ORIENTED_EDGE('',*,*,#169,.F.);
#145=ORIENTED_EDGE('',*,*,#182,.F.);
#146=EDGE_CURVE('',#183,#184,#212,.T.);
#147=EDGE_CURVE('',#185,#183,#51,.T.);
#148=EDGE_CURVE('',#186,#185,#213,.T.);
#149=EDGE_CURVE('',#186,#184,#52,.T.);
#150=EDGE_CURVE('',#184,#187,#27,.T.);
#151=EDGE_CURVE('',#186,#188,#28,.T.);
#152=EDGE_CURVE('',#188,#187,#53,.T.);
#153=EDGE_CURVE('',#187,#189,#214,.T.);
#154=EDGE_CURVE('',#190,#188,#215,.T.);
#155=EDGE_CURVE('',#190,#189,#54,.T.);
#156=EDGE_CURVE('',#191,#191,#55,.T.);
#157=EDGE_CURVE('',#192,#192,#56,.F.);
#158=EDGE_CURVE('',#193,#193,#57,.T.);
#159=EDGE_CURVE('',#194,#195,#58,.T.);
#160=EDGE_CURVE('',#189,#194,#29,.T.);
#161=EDGE_CURVE('',#195,#190,#30,.T.);
#162=EDGE_CURVE('',#196,#196,#59,.T.);
#163=EDGE_CURVE('',#197,#197,#60,.T.);
#164=EDGE_CURVE('',#198,#198,#61,.T.);
#165=EDGE_CURVE('',#199,#199,#62,.T.);
#166=EDGE_CURVE('',#183,#200,#31,.T.);
#167=EDGE_CURVE('',#200,#201,#63,.T.);
#168=EDGE_CURVE('',#201,#185,#32,.T.);
#169=EDGE_CURVE('',#202,#202,#64,.F.);
#170=EDGE_CURVE('',#203,#203,#65,.T.);
#171=EDGE_CURVE('',#201,#204,#216,.T.);
#172=EDGE_CURVE('',#205,#200,#217,.T.);
#173=EDGE_CURVE('',#205,#204,#66,.T.);
#174=EDGE_CURVE('',#205,#206,#33,.T.);
#175=EDGE_CURVE('',#206,#207,#67,.T.);
#176=EDGE_CURVE('',#204,#207,#34,.T.);
#177=EDGE_CURVE('',#207,#195,#218,.T.);
#178=EDGE_CURVE('',#194,#206,#219,.T.);
#179=EDGE_CURVE('',#208,#208,#68,.T.);
#180=EDGE_CURVE('',#209,#209,#69,.T.);
#181=EDGE_CURVE('',#210,#210,#70,.T.);
#182=EDGE_CURVE('',#211,#211,#71,.T.);
#183=VERTEX_POINT('',#469);
#184=VERTEX_POINT('',#470);
#185=VERTEX_POINT('',#472);
#186=VERTEX_POINT('',#477);
#187=VERTEX_POINT('',#481);
#188=VERTEX_POINT('',#483);
#189=VERTEX_POINT('',#490);
#190=VERTEX_POINT('',#495);
#191=VERTEX_POINT('',#499);
#192=VERTEX_POINT('',#501);
#193=VERTEX_POINT('',#503);
#194=VERTEX_POINT('',#505);
#195=VERTEX_POINT('',#506);
#196=VERTEX_POINT('',#511);
#197=VERTEX_POINT('',#514);
#198=VERTEX_POINT('',#517);
#199=VERTEX_POINT('',#520);
#200=VERTEX_POINT('',#523);
#201=VERTEX_POINT('',#525);
#202=VERTEX_POINT('',#528);
#203=VERTEX_POINT('',#530);
#204=VERTEX_POINT('',#536);
#205=VERTEX_POINT('',#541);
#206=VERTEX_POINT('',#545);
#207=VERTEX_POINT('',#547);
#208=VERTEX_POINT('',#562);
#209=VERTEX_POINT('',#565);
#210=VERTEX_POINT('',#569);
#211=VERTEX_POINT('',#572);
#212=B_SPLINE_CURVE_WITH_KNOTS('',3,(#465,#466,#467,#468),.UNSPECIFIED.,
 .F.,.F.,(4,4),(0.00121503204380686,0.00157824893657495),.UNSPECIFIED.);
#213=B_SPLINE_CURVE_WITH_KNOTS('',3,(#473,#474,#475,#476),.UNSPECIFIED.,
 .F.,.F.,(4,4),(0.0013287243432097,0.00169050644619874),.UNSPECIFIED.);
#214=B_SPLINE_CURVE_WITH_KNOTS('',3,(#486,#487,#488,#489),.UNSPECIFIED.,
 .F.,.F.,(4,4),(0.0013287243432097,0.00169050644619874),.UNSPECIFIED.);
#215=B_SPLINE_CURVE_WITH_KNOTS('',3,(#491,#492,#493,#494),.UNSPECIFIED.,
 .F.,.F.,(4,4),(0.00121503204380689,0.00157824893657509),.UNSPECIFIED.);
#216=B_SPLINE_CURVE_WITH_KNOTS('',3,(#532,#533,#534,#535),.UNSPECIFIED.,
 .F.,.F.,(4,4),(0.000318190208861387,0.000680735716234503),
 .UNSPECIFIED.);
#217=B_SPLINE_CURVE_WITH_KNOTS('',3,(#537,#538,#539,#540),.UNSPECIFIED.,
 .F.,.F.,(4,4),(0.000773965160979402,0.00113705824742427),.UNSPECIFIED.);
#218=B_SPLINE_CURVE_WITH_KNOTS('',3,(#550,#551,#552,#553),.UNSPECIFIED.,
 .F.,.F.,(4,4),(0.000773965160979401,0.00113705824742427),.UNSPECIFIED.);
#219=B_SPLINE_CURVE_WITH_KNOTS('',3,(#554,#555,#556,#557),.UNSPECIFIED.,
 .F.,.F.,(4,4),(0.000318190208861387,0.000680735716234186),
 .UNSPECIFIED.);
#220=EDGE_LOOP('',(#72,#73,#74,#75));
#221=EDGE_LOOP('',(#76,#77,#78,#79));
#222=EDGE_LOOP('',(#80,#81,#82,#83));
#223=EDGE_LOOP('',(#84));
#224=EDGE_LOOP('',(#85));
#225=EDGE_LOOP('',(#86));
#226=EDGE_LOOP('',(#87,#88,#89,#90));
#227=EDGE_LOOP('',(#91));
#228=EDGE_LOOP('',(#92));
#229=EDGE_LOOP('',(#93));
#230=EDGE_LOOP('',(#94));
#231=EDGE_LOOP('',(#95));
#232=EDGE_LOOP('',(#96));
#233=EDGE_LOOP('',(#97));
#234=EDGE_LOOP('',(#98));
#235=EDGE_LOOP('',(#99,#100,#101,#102));
#236=EDGE_LOOP('',(#103));
#237=EDGE_LOOP('',(#104));
#238=EDGE_LOOP('',(#105));
#239=EDGE_LOOP('',(#106,#107,#108,#109));
#240=EDGE_LOOP('',(#110,#111,#112,#113));
#241=EDGE_LOOP('',(#114,#115,#116,#117));
#242=EDGE_LOOP('',(#118,#119,#120,#121,#122,#123,#124,#125));
#243=EDGE_LOOP('',(#126,#127,#128,#129,#130,#131,#132,#133));
#244=EDGE_LOOP('',(#134));
#245=EDGE_LOOP('',(#135));
#246=EDGE_LOOP('',(#136));
#247=EDGE_LOOP('',(#137));
#248=EDGE_LOOP('',(#138));
#249=EDGE_LOOP('',(#139));
#250=EDGE_LOOP('',(#140));
#251=EDGE_LOOP('',(#141));
#252=EDGE_LOOP('',(#142));
#253=EDGE_LOOP('',(#143));
#254=EDGE_LOOP('',(#144));
#255=EDGE_LOOP('',(#145));
#256=FACE_BOUND('',#220,.T.);
#257=FACE_BOUND('',#221,.T.);
#258=FACE_BOUND('',#222,.T.);
#259=FACE_BOUND('',#223,.T.);
#260=FACE_BOUND('',#224,.T.);
#261=FACE_BOUND('',#225,.T.);
#262=FACE_BOUND('',#226,.T.);
#263=FACE_BOUND('',#227,.T.);
#264=FACE_BOUND('',#228,.T.);
#265=FACE_BOUND('',#229,.T.);
#266=FACE_BOUND('',#230,.T.);
#267=FACE_BOUND('',#231,.T.);
#268=FACE_BOUND('',#232,.T.);
#269=FACE_BOUND('',#233,.T.);
#270=FACE_BOUND('',#234,.T.);
#271=FACE_BOUND('',#235,.T.);
#272=FACE_BOUND('',#236,.T.);
#273=FACE_BOUND('',#237,.T.);
#274=FACE_BOUND('',#238,.T.);
#275=FACE_BOUND('',#239,.T.);
#276=FACE_BOUND('',#240,.T.);
#277=FACE_BOUND('',#241,.T.);
#278=FACE_BOUND('',#242,.T.);
#279=FACE_BOUND('',#243,.T.);
#280=FACE_BOUND('',#244,.T.);
#281=FACE_BOUND('',#245,.T.);
#282=FACE_BOUND('',#246,.T.);
#283=FACE_BOUND('',#247,.T.);
#284=FACE_BOUND('',#248,.T.);
#285=FACE_BOUND('',#249,.T.);
#286=FACE_BOUND('',#250,.T.);
#287=FACE_BOUND('',#251,.T.);
#288=FACE_BOUND('',#252,.T.);
#289=FACE_BOUND('',#253,.T.);
#290=FACE_BOUND('',#254,.T.);
#291=FACE_BOUND('',#255,.T.);
#292=TOROIDAL_SURFACE('',#330,19.3,0.200000000000003);
#293=TOROIDAL_SURFACE('',#335,19.3,0.200000000000002);
#294=TOROIDAL_SURFACE('',#346,9.3,0.200000000000006);
#295=TOROIDAL_SURFACE('',#354,19.3,0.200000000000003);
#296=TOROIDAL_SURFACE('',#358,19.3,0.200000000000002);
#297=ADVANCED_FACE('',(#256),#292,.T.);
#298=ADVANCED_FACE('',(#257),#43,.T.);
#299=ADVANCED_FACE('',(#258),#293,.T.);
#300=ADVANCED_FACE('',(#259,#260,#261,#262),#20,.T.);
#301=ADVANCED_FACE('',(#263,#264),#44,.F.);
#302=ADVANCED_FACE('',(#265,#266),#21,.T.);
#303=ADVANCED_FACE('',(#267,#268),#294,.T.);
#304=ADVANCED_FACE('',(#269,#270),#45,.T.);
#305=ADVANCED_FACE('',(#271,#272,#273,#274),#22,.T.);
#306=ADVANCED_FACE('',(#275),#295,.T.);
#307=ADVANCED_FACE('',(#276),#46,.T.);
#308=ADVANCED_FACE('',(#277),#296,.T.);
#309=ADVANCED_FACE('',(#278),#23,.F.);
#310=ADVANCED_FACE('',(#279),#24,.F.);
#311=ADVANCED_FACE('',(#280,#281),#47,.F.);
#312=ADVANCED_FACE('',(#282,#283),#25,.T.);
#313=ADVANCED_FACE('',(#284,#285),#48,.F.);
#314=ADVANCED_FACE('',(#286,#287),#49,.F.);
#315=ADVANCED_FACE('',(#288,#289),#26,.T.);
#316=ADVANCED_FACE('',(#290,#291),#50,.F.);
#317=CLOSED_SHELL('',(#297,#298,#299,#300,#301,#302,#303,#304,#305,#306,
#307,#308,#309,#310,#311,#312,#313,#314,#315,#316));
#318=STYLED_ITEM('',(#319),#326);
#319=PRESENTATION_STYLE_ASSIGNMENT((#320));
#320=SURFACE_STYLE_USAGE(.BOTH.,#321);
#321=SURFACE_SIDE_STYLE('',(#322));
#322=SURFACE_STYLE_FILL_AREA(#323);
#323=FILL_AREA_STYLE('',(#324));
#324=FILL_AREA_STYLE_COLOUR('',#325);
#325=COLOUR_RGB('',0.689999997615814,0.689999997615814,0.689999997615814);
#326=MANIFOLD_SOLID_BREP('LMH10L',#317);
#327=SHAPE_DEFINITION_REPRESENTATION(#580,#328);
#328=SHAPE_REPRESENTATION('LMH10L',(#329),#575);
#329=AXIS2_PLACEMENT_3D('',#463,#371,#372);
#330=AXIS2_PLACEMENT_3D('',#464,#373,#374);
#331=AXIS2_PLACEMENT_3D('',#471,#375,#376);
#332=AXIS2_PLACEMENT_3D('',#478,#377,#378);
#333=AXIS2_PLACEMENT_3D('',#479,#379,#380);
#334=AXIS2_PLACEMENT_3D('',#484,#383,#384);
#335=AXIS2_PLACEMENT_3D('',#485,#385,#386);
#336=AXIS2_PLACEMENT_3D('',#496,#387,#388);
#337=AXIS2_PLACEMENT_3D('',#497,#389,#390);
#338=AXIS2_PLACEMENT_3D('',#498,#391,#392);
#339=AXIS2_PLACEMENT_3D('',#500,#393,#394);
#340=AXIS2_PLACEMENT_3D('',#502,#395,#396);
#341=AXIS2_PLACEMENT_3D('',#504,#397,#398);
#342=AXIS2_PLACEMENT_3D('',#509,#401,#402);
#343=AXIS2_PLACEMENT_3D('',#510,#403,#404);
#344=AXIS2_PLACEMENT_3D('',#512,#405,#406);
#345=AXIS2_PLACEMENT_3D('',#513,#407,#408);
#346=AXIS2_PLACEMENT_3D('',#515,#409,#410);
#347=AXIS2_PLACEMENT_3D('',#516,#411,#412);
#348=AXIS2_PLACEMENT_3D('',#518,#413,#414);
#349=AXIS2_PLACEMENT_3D('',#519,#415,#416);
#350=AXIS2_PLACEMENT_3D('',#521,#417,#418);
#351=AXIS2_PLACEMENT_3D('',#524,#420,#421);
#352=AXIS2_PLACEMENT_3D('',#527,#423,#424);
#353=AXIS2_PLACEMENT_3D('',#529,#425,#426);
#354=AXIS2_PLACEMENT_3D('',#531,#427,#428);
#355=AXIS2_PLACEMENT_3D('',#542,#429,#430);
#356=AXIS2_PLACEMENT_3D('',#543,#431,#432);
#357=AXIS2_PLACEMENT_3D('',#546,#434,#435);
#358=AXIS2_PLACEMENT_3D('',#549,#437,#438);
#359=AXIS2_PLACEMENT_3D('',#558,#439,#440);
#360=AXIS2_PLACEMENT_3D('',#559,#441,#442);
#361=AXIS2_PLACEMENT_3D('',#560,#443,#444);
#362=AXIS2_PLACEMENT_3D('',#561,#445,#446);
#363=AXIS2_PLACEMENT_3D('',#563,#447,#448);
#364=AXIS2_PLACEMENT_3D('',#564,#449,#450);
#365=AXIS2_PLACEMENT_3D('',#566,#451,#452);
#366=AXIS2_PLACEMENT_3D('',#567,#453,#454);
#367=AXIS2_PLACEMENT_3D('',#568,#455,#456);
#368=AXIS2_PLACEMENT_3D('',#570,#457,#458);
#369=AXIS2_PLACEMENT_3D('',#571,#459,#460);
#370=AXIS2_PLACEMENT_3D('',#573,#461,#462);
#371=DIRECTION('',(0.,0.,1.));
#372=DIRECTION('',(1.,0.,0.));
#373=DIRECTION('',(1.,0.,0.));
#374=DIRECTION('',(0.,0.,-1.));
#375=DIRECTION('',(1.,0.,0.));
#376=DIRECTION('',(0.,0.,-1.));
#377=DIRECTION('',(1.,0.,0.));
#378=DIRECTION('',(0.,0.,-1.));
#379=DIRECTION('',(1.,0.,0.));
#380=DIRECTION('',(0.,0.,-1.));
#381=DIRECTION('',(-1.,0.,0.));
#382=DIRECTION('',(-1.,0.,0.));
#383=DIRECTION('',(1.,0.,0.));
#384=DIRECTION('',(0.,0.,-1.));
#385=DIRECTION('',(1.,0.,0.));
#386=DIRECTION('',(0.,0.,-1.));
#387=DIRECTION('',(1.,0.,0.));
#388=DIRECTION('',(0.,0.,-1.));
#389=DIRECTION('',(-1.,0.,0.));
#390=DIRECTION('',(0.,0.,1.));
#391=DIRECTION('',(1.,0.,0.));
#392=DIRECTION('',(0.,0.,-1.));
#393=DIRECTION('',(-1.,0.,0.));
#394=DIRECTION('',(0.,0.,1.));
#395=DIRECTION('',(-1.,0.,0.));
#396=DIRECTION('',(0.,0.,1.));
#397=DIRECTION('',(1.,0.,0.));
#398=DIRECTION('',(0.,0.,-1.));
#399=DIRECTION('',(0.,1.,0.));
#400=DIRECTION('',(0.,-1.,0.));
#401=DIRECTION('',(1.,0.,0.));
#402=DIRECTION('',(0.,0.,-1.));
#403=DIRECTION('',(1.,0.,0.));
#404=DIRECTION('',(0.,0.,-1.));
#405=DIRECTION('',(1.,0.,0.));
#406=DIRECTION('',(0.,0.,-1.));
#407=DIRECTION('',(1.,0.,0.));
#408=DIRECTION('',(0.,0.,-1.));
#409=DIRECTION('',(1.,0.,0.));
#410=DIRECTION('',(0.,0.,-1.));
#411=DIRECTION('',(1.,0.,0.));
#412=DIRECTION('',(0.,0.,-1.));
#413=DIRECTION('',(1.,0.,0.));
#414=DIRECTION('',(0.,0.,-1.));
#415=DIRECTION('',(1.,0.,0.));
#416=DIRECTION('',(0.,0.,-1.));
#417=DIRECTION('',(1.,0.,0.));
#418=DIRECTION('',(0.,0.,-1.));
#419=DIRECTION('',(0.,1.,0.));
#420=DIRECTION('',(1.,0.,0.));
#421=DIRECTION('',(0.,0.,-1.));
#422=DIRECTION('',(0.,-1.,0.));
#423=DIRECTION('',(1.,0.,0.));
#424=DIRECTION('',(0.,0.,-1.));
#425=DIRECTION('',(-1.,0.,0.));
#426=DIRECTION('',(0.,0.,1.));
#427=DIRECTION('',(1.,0.,0.));
#428=DIRECTION('',(0.,0.,-1.));
#429=DIRECTION('',(1.,0.,0.));
#430=DIRECTION('',(0.,0.,-1.));
#431=DIRECTION('',(1.,0.,0.));
#432=DIRECTION('',(0.,0.,-1.));
#433=DIRECTION('',(-1.,0.,0.));
#434=DIRECTION('',(1.,0.,0.));
#435=DIRECTION('',(0.,0.,-1.));
#436=DIRECTION('',(-1.,0.,0.));
#437=DIRECTION('',(1.,0.,0.));
#438=DIRECTION('',(0.,0.,-1.));
#439=DIRECTION('',(0.,0.,-1.));
#440=DIRECTION('',(-1.,0.,0.));
#441=DIRECTION('',(0.,0.,1.));
#442=DIRECTION('',(1.,0.,0.));
#443=DIRECTION('',(-1.,0.,0.));
#444=DIRECTION('',(0.,0.,1.));
#445=DIRECTION('',(-1.,0.,0.));
#446=DIRECTION('',(0.,0.,1.));
#447=DIRECTION('',(-1.,0.,0.));
#448=DIRECTION('',(0.,0.,1.));
#449=DIRECTION('',(-1.,0.,0.));
#450=DIRECTION('',(0.,0.,1.));
#451=DIRECTION('',(-1.,0.,0.));
#452=DIRECTION('',(0.,0.,1.));
#453=DIRECTION('',(1.,0.,0.));
#454=DIRECTION('',(0.,0.,-1.));
#455=DIRECTION('',(1.,0.,0.));
#456=DIRECTION('',(0.,0.,-1.));
#457=DIRECTION('',(-1.,0.,0.));
#458=DIRECTION('',(0.,0.,1.));
#459=DIRECTION('',(1.,0.,0.));
#460=DIRECTION('',(0.,0.,-1.));
#461=DIRECTION('',(1.,0.,0.));
#462=DIRECTION('',(0.,0.,-1.));
#463=CARTESIAN_POINT('',(0.,0.,0.));
#464=CARTESIAN_POINT('',(5.8,0.,0.));
#465=CARTESIAN_POINT('',(6.,-14.7051011557214,-12.5));
#466=CARTESIAN_POINT('',(6.,-14.8266027407348,-12.5));
#467=CARTESIAN_POINT('',(5.92216967025535,-14.9666295470958,-12.5));
#468=CARTESIAN_POINT('',(5.8,-14.9666295470958,-12.5));
#469=CARTESIAN_POINT('',(6.,-14.7051011557214,-12.5));
#470=CARTESIAN_POINT('',(5.8,-14.9666295470958,-12.5));
#471=CARTESIAN_POINT('',(6.,0.,0.));
#472=CARTESIAN_POINT('',(6.,-14.7051011557214,12.5));
#473=CARTESIAN_POINT('',(5.8,-14.9666295470958,12.5));
#474=CARTESIAN_POINT('',(5.92132576816234,-14.9666295470958,12.5));
#475=CARTESIAN_POINT('',(6.,-14.8257955248452,12.5));
#476=CARTESIAN_POINT('',(6.,-14.7051011557214,12.5));
#477=CARTESIAN_POINT('',(5.8,-14.9666295470958,12.5));
#478=CARTESIAN_POINT('',(5.8,0.,0.));
#479=CARTESIAN_POINT('',(55.,0.,0.));
#480=CARTESIAN_POINT('',(6.,-14.9666295470958,-12.5));
#481=CARTESIAN_POINT('',(0.200000000000002,-14.9666295470958,-12.5));
#482=CARTESIAN_POINT('',(6.,-14.9666295470958,12.5));
#483=CARTESIAN_POINT('',(0.2000000000001,-14.9666295470958,12.5));
#484=CARTESIAN_POINT('',(0.199999999999999,0.,0.));
#485=CARTESIAN_POINT('',(0.200000000000003,0.,0.));
#486=CARTESIAN_POINT('',(0.200000000000003,-14.9666295470958,-12.5));
#487=CARTESIAN_POINT('',(0.0786742318376587,-14.9666295470958,-12.5));
#488=CARTESIAN_POINT('',(-2.4827173655072E-15,-14.8257955248452,-12.5));
#489=CARTESIAN_POINT('',(-3.89003810134447E-16,-14.7051011557214,-12.5));
#490=CARTESIAN_POINT('',(0.,-14.7051011557214,-12.5));
#491=CARTESIAN_POINT('',(2.62999490821821E-16,-14.7051011557214,12.5));
#492=CARTESIAN_POINT('',(-1.84471702808914E-15,-14.8266027407348,12.5));
#493=CARTESIAN_POINT('',(0.0778303297447321,-14.9666295470958,12.5));
#494=CARTESIAN_POINT('',(0.2000000000001,-14.9666295470958,12.5));
#495=CARTESIAN_POINT('',(0.,-14.7051011557214,12.5));
#496=CARTESIAN_POINT('',(0.,0.,0.));
#497=CARTESIAN_POINT('',(2.16840434497101E-16,19.3,0.));
#498=CARTESIAN_POINT('',(0.,0.,0.));
#499=CARTESIAN_POINT('',(0.,0.,-5.));
#500=CARTESIAN_POINT('',(0.,14.5,0.));
#501=CARTESIAN_POINT('',(0.,14.5,4.));
#502=CARTESIAN_POINT('',(0.,-14.5,0.));
#503=CARTESIAN_POINT('',(0.,-14.5,4.));
#504=CARTESIAN_POINT('',(0.,0.,0.));
#505=CARTESIAN_POINT('',(0.,14.7051011557214,-12.5));
#506=CARTESIAN_POINT('',(0.,14.7051011557214,12.5));
#507=CARTESIAN_POINT('',(0.,-14.9666295470958,-12.5));
#508=CARTESIAN_POINT('',(0.,14.9666295470958,12.5));
#509=CARTESIAN_POINT('',(55.,0.,0.));
#510=CARTESIAN_POINT('',(55.,0.,0.));
#511=CARTESIAN_POINT('',(55.,0.,-5.));
#512=CARTESIAN_POINT('',(55.,5.,0.));
#513=CARTESIAN_POINT('',(55.,0.,0.));
#514=CARTESIAN_POINT('',(55.,0.,-9.3));
#515=CARTESIAN_POINT('',(54.8,0.,0.));
#516=CARTESIAN_POINT('',(54.8,0.,0.));
#517=CARTESIAN_POINT('',(54.8,0.,-9.5));
#518=CARTESIAN_POINT('',(55.,0.,0.));
#519=CARTESIAN_POINT('',(6.00000000000001,0.,0.));
#520=CARTESIAN_POINT('',(6.00000000000001,0.,-9.5));
#521=CARTESIAN_POINT('',(6.,9.5,0.));
#522=CARTESIAN_POINT('',(6.,-14.9666295470958,-12.5));
#523=CARTESIAN_POINT('',(6.,14.7051011557214,-12.5));
#524=CARTESIAN_POINT('',(6.,0.,0.));
#525=CARTESIAN_POINT('',(6.,14.7051011557214,12.5));
#526=CARTESIAN_POINT('',(6.,14.9666295470958,12.5));
#527=CARTESIAN_POINT('',(6.,14.5,0.));
#528=CARTESIAN_POINT('',(6.,14.5,-2.25));
#529=CARTESIAN_POINT('',(6.,-14.5,0.));
#530=CARTESIAN_POINT('',(6.,-14.5,2.25));
#531=CARTESIAN_POINT('',(5.8,0.,0.));
#532=CARTESIAN_POINT('',(6.,14.7051011557214,12.5));
#533=CARTESIAN_POINT('',(6.,14.8270316336677,12.5));
#534=CARTESIAN_POINT('',(5.92131839356314,14.9666295470958,12.5));
#535=CARTESIAN_POINT('',(5.8,14.9666295470958,12.5));
#536=CARTESIAN_POINT('',(5.8,14.9666295470958,12.5));
#537=CARTESIAN_POINT('',(5.8,14.9666295470959,-12.5));
#538=CARTESIAN_POINT('',(5.9208907088683,14.9666295470958,-12.5));
#539=CARTESIAN_POINT('',(6.,14.825783700035,-12.5));
#540=CARTESIAN_POINT('',(6.,14.7051011557214,-12.5));
#541=CARTESIAN_POINT('',(5.8,14.9666295470958,-12.5));
#542=CARTESIAN_POINT('',(5.8,0.,0.));
#543=CARTESIAN_POINT('',(55.,0.,0.));
#544=CARTESIAN_POINT('',(6.,14.9666295470958,-12.5));
#545=CARTESIAN_POINT('',(0.199999999999692,14.9666295470958,-12.5));
#546=CARTESIAN_POINT('',(0.199999999999999,0.,0.));
#547=CARTESIAN_POINT('',(0.199999999999999,14.9666295470958,12.5));
#548=CARTESIAN_POINT('',(6.,14.9666295470958,12.5));
#549=CARTESIAN_POINT('',(0.200000000000003,0.,0.));
#550=CARTESIAN_POINT('',(0.199999999999999,14.9666295470959,12.5));
#551=CARTESIAN_POINT('',(0.0791092911316942,14.9666295470958,12.5));
#552=CARTESIAN_POINT('',(-2.73516979956301E-15,14.825783700035,12.5));
#553=CARTESIAN_POINT('',(-6.41661371950247E-16,14.7051011557214,12.5));
#554=CARTESIAN_POINT('',(3.93927328080856E-16,14.7051011557214,-12.5));
#555=CARTESIAN_POINT('',(3.93927328080856E-16,14.8270316336676,-12.5));
#556=CARTESIAN_POINT('',(0.0786816064366716,14.9666295470955,-12.5));
#557=CARTESIAN_POINT('',(0.19999999999969,14.9666295470958,-12.5));
#558=CARTESIAN_POINT('',(6.,14.9666295470958,12.5));
#559=CARTESIAN_POINT('',(6.,-14.9666295470958,-12.5));
#560=CARTESIAN_POINT('',(0.,-14.5,0.));
#561=CARTESIAN_POINT('',(4.4,-14.5,0.));
#562=CARTESIAN_POINT('',(4.4,-14.5,2.25));
#563=CARTESIAN_POINT('',(4.4,-16.75,0.));
#564=CARTESIAN_POINT('',(4.4,-14.5,0.));
#565=CARTESIAN_POINT('',(4.4,-14.5,4.));
#566=CARTESIAN_POINT('',(0.,-14.5,0.));
#567=CARTESIAN_POINT('',(6.,14.5,0.));
#568=CARTESIAN_POINT('',(4.4,14.5,0.));
#569=CARTESIAN_POINT('',(4.4,14.5,-4.));
#570=CARTESIAN_POINT('',(4.4,18.5,0.));
#571=CARTESIAN_POINT('',(4.4,14.5,0.));
#572=CARTESIAN_POINT('',(4.4,14.5,-2.25));
#573=CARTESIAN_POINT('',(6.,14.5,0.));
#574=MECHANICAL_DESIGN_GEOMETRIC_PRESENTATION_REPRESENTATION('',(#318),
#575);
#575=(
GEOMETRIC_REPRESENTATION_CONTEXT(3)
GLOBAL_UNCERTAINTY_ASSIGNED_CONTEXT((#576))
GLOBAL_UNIT_ASSIGNED_CONTEXT((#579,#578,#577))
REPRESENTATION_CONTEXT('LMH10L','TOP_LEVEL_ASSEMBLY_PART')
);
#576=UNCERTAINTY_MEASURE_WITH_UNIT(LENGTH_MEASURE(0.005),#579,
'DISTANCE_ACCURACY_VALUE','Maximum Tolerance applied to model');
#577=(
NAMED_UNIT(*)
SI_UNIT($,.STERADIAN.)
SOLID_ANGLE_UNIT()
);
#578=(
NAMED_UNIT(*)
PLANE_ANGLE_UNIT()
SI_UNIT($,.RADIAN.)
);
#579=(
LENGTH_UNIT()
NAMED_UNIT(*)
SI_UNIT(.MILLI.,.METRE.)
);
#580=PRODUCT_DEFINITION_SHAPE('','',#581);
#581=PRODUCT_DEFINITION('','',#583,#582);
#582=DESIGN_CONTEXT('',#589,'design');
#583=PRODUCT_DEFINITION_FORMATION_WITH_SPECIFIED_SOURCE('','',#585,
 .NOT_KNOWN.);
#584=PRODUCT_RELATED_PRODUCT_CATEGORY('','',(#585));
#585=PRODUCT('LMH10L','LMH10L','LMH10L',(#587));
#586=PRODUCT_CATEGORY('','');
#587=MECHANICAL_CONTEXT('',#589,'mechanical');
#588=APPLICATION_PROTOCOL_DEFINITION('international standard',
'config_control_design',2010,#589);
#589=APPLICATION_CONTEXT(
'configuration controlled 3D designs of mechanical parts and assemblie
s');
ENDSEC;
END-ISO-10303-21;
